ISO-10303-21;
HEADER;
FILE_DESCRIPTION(('STEP AP203'),'1');
FILE_NAME('fath_093wu302s.stp','2019-10-10T12:56:28',('TraceParts'),('TraceParts S.A.'),'Spatial InterOp 3D',' ',' ');
FILE_SCHEMA(('CONFIG_CONTROL_DESIGN'));
ENDSEC;
DATA;
#1=DESIGN_CONTEXT('',#27,'design');
#2=APPLICATION_PROTOCOL_DEFINITION('INTERNATIONAL STANDARD','config_control_design',1994,#27);
#3=PRODUCT_CATEGORY_RELATIONSHIP('NONE','NONE',#28,#29);
#4=DATE_AND_TIME(#30,#31);
#5=DATE_TIME_ROLE('creation_date');
#6=DATE_TIME_ROLE('classification_date');
#7=PERSON_AND_ORGANIZATION_ROLE('creator');
#8=PERSON_AND_ORGANIZATION_ROLE('design_supplier');
#9=PERSON_AND_ORGANIZATION_ROLE('classification_officer');
#10=PERSON_AND_ORGANIZATION_ROLE('design_owner');
#11=APPROVAL_PERSON_ORGANIZATION(#32,#33,#34);
#12=APPROVAL_DATE_TIME(#4,#33);
#13=CC_DESIGN_APPROVAL(#33,(#35,#36,#37));
#14=CC_DESIGN_DATE_AND_TIME_ASSIGNMENT(#4,#5,(#37));
#15=CC_DESIGN_DATE_AND_TIME_ASSIGNMENT(#4,#6,(#35));
#16=CC_DESIGN_PERSON_AND_ORGANIZATION_ASSIGNMENT(#32,#10,(#38));
#17=CC_DESIGN_PERSON_AND_ORGANIZATION_ASSIGNMENT(#32,#7,(#37));
#18=CC_DESIGN_PERSON_AND_ORGANIZATION_ASSIGNMENT(#32,#7,(#36));
#19=CC_DESIGN_PERSON_AND_ORGANIZATION_ASSIGNMENT(#32,#8,(#36));
#20=CC_DESIGN_SECURITY_CLASSIFICATION(#35,(#36));
#21=CC_DESIGN_PERSON_AND_ORGANIZATION_ASSIGNMENT(#32,#9,(#35));
#22=SHAPE_DEFINITION_REPRESENTATION(#39,#40);
#23= (GEOMETRIC_REPRESENTATION_CONTEXT(3)GLOBAL_UNCERTAINTY_ASSIGNED_CONTEXT((#43))GLOBAL_UNIT_ASSIGNED_CONTEXT((#45,#46,#47))REPRESENTATION_CONTEXT('NONE','WORKSPACE'));
#27=APPLICATION_CONTEXT('CONFIGURATION CONTROLLED 3D DESIGNS OF MECHANICAL PARTS AND ASSEMBLIES');
#28=PRODUCT_CATEGORY('part','NONE');
#29=PRODUCT_RELATED_PRODUCT_CATEGORY('detail',' ',(#38));
#30=CALENDAR_DATE(2019,10,9);
#31=LOCAL_TIME(14,56,28.0,#49);
#32=PERSON_AND_ORGANIZATION(#50,#51);
#33=APPROVAL(#52,'SOLID MODEL');
#34=APPROVAL_ROLE('APPROVED');
#35=SECURITY_CLASSIFICATION('','',#53);
#36=PRODUCT_DEFINITION_FORMATION_WITH_SPECIFIED_SOURCE(' ','NONE',#38,.NOT_KNOWN.);
#37=PRODUCT_DEFINITION('','NONE',#36,#1);
#38=PRODUCT('1','','PART--DESC',(#54));
#39=PRODUCT_DEFINITION_SHAPE('NONE','NONE',#37);
#40=ADVANCED_BREP_SHAPE_REPRESENTATION('1',(#55,#56),#23);
#43=UNCERTAINTY_MEASURE_WITH_UNIT(LENGTH_MEASURE(1.0E-06),#45,'','');
#45= (CONVERSION_BASED_UNIT('MILLIMETRE',#59)LENGTH_UNIT()NAMED_UNIT(#62));
#46= (NAMED_UNIT(#64)PLANE_ANGLE_UNIT()SI_UNIT($,.RADIAN.));
#47= (NAMED_UNIT(#64)SOLID_ANGLE_UNIT()SI_UNIT($,.STERADIAN.));
#49=COORDINATED_UNIVERSAL_TIME_OFFSET(1,0,.AHEAD.);
#50=PERSON('','UNSPECIFIED',$,$,$,$);
#51=ORGANIZATION('UNSPECIFIED','UNSPECIFIED','UNSPECIFIED');
#52=APPROVAL_STATUS('approved');
#53=SECURITY_CLASSIFICATION_LEVEL('unclassified');
#54=MECHANICAL_CONTEXT('',#27,'mechanical');
#55=MANIFOLD_SOLID_BREP('1',#70);
#56=AXIS2_PLACEMENT_3D('',#71,#72,#73);
#59=LENGTH_MEASURE_WITH_UNIT(LENGTH_MEASURE(1.0),#74);
#62=DIMENSIONAL_EXPONENTS(1.0,0.0,0.0,0.0,0.0,0.0,0.0);
#64=DIMENSIONAL_EXPONENTS(0.0,0.0,0.0,0.0,0.0,0.0,0.0);
#70=CLOSED_SHELL('',(#75,#76,#77,#78,#79,#80,#81,#82,#83,#84,#85,#86));
#71=CARTESIAN_POINT('',(0.0,0.0,0.0));
#72=DIRECTION('',(0.0,0.0,1.0));
#73=DIRECTION('',(1.0,0.0,0.0));
#74= (NAMED_UNIT(#62)LENGTH_UNIT()SI_UNIT(.MILLI.,.METRE.));
#75=ADVANCED_FACE('',(#88),#89,.F.);
#76=ADVANCED_FACE('',(#90),#91,.F.);
#77=ADVANCED_FACE('',(#92,#93),#94,.F.);
#78=ADVANCED_FACE('',(#95),#96,.T.);
#79=ADVANCED_FACE('',(#97,#98),#99,.F.);
#80=ADVANCED_FACE('',(#100),#101,.F.);
#81=ADVANCED_FACE('',(#102),#103,.F.);
#82=ADVANCED_FACE('',(#104),#105,.F.);
#83=ADVANCED_FACE('',(#106),#107,.F.);
#84=ADVANCED_FACE('',(#108,#109),#110,.F.);
#85=ADVANCED_FACE('',(#111,#112),#113,.F.);
#86=ADVANCED_FACE('',(#114),#115,.F.);
#88=FACE_OUTER_BOUND('',#116,.T.);
#89=CONICAL_SURFACE('',#117,6.39999999992824,0.785398163397448);
#90=FACE_OUTER_BOUND('',#118,.T.);
#91=CONICAL_SURFACE('',#119,6.40000000005557,0.785398163397448);
#92=FACE_OUTER_BOUND('',#120,.T.);
#93=FACE_BOUND('',#121,.T.);
#94=PLANE('',#122);
#95=FACE_OUTER_BOUND('',#123,.T.);
#96=PLANE('',#124);
#97=FACE_OUTER_BOUND('',#125,.T.);
#98=FACE_BOUND('',#126,.T.);
#99=PLANE('',#127);
#100=FACE_OUTER_BOUND('',#128,.T.);
#101=PLANE('',#129);
#102=FACE_OUTER_BOUND('',#130,.T.);
#103=PLANE('',#131);
#104=FACE_OUTER_BOUND('',#132,.T.);
#105=CONICAL_SURFACE('',#133,6.39999999992824,0.785398163397448);
#106=FACE_OUTER_BOUND('',#134,.T.);
#107=PLANE('',#135);
#108=FACE_OUTER_BOUND('',#136,.T.);
#109=FACE_BOUND('',#137,.T.);
#110=PLANE('',#138);
#111=FACE_OUTER_BOUND('',#139,.T.);
#112=FACE_BOUND('',#140,.T.);
#113=PLANE('',#141);
#114=FACE_OUTER_BOUND('',#142,.T.);
#115=CONICAL_SURFACE('',#143,6.40000000005557,0.785398163397448);
#116=EDGE_LOOP('',(#144,#145,#146,#147));
#117=AXIS2_PLACEMENT_3D('',#148,#149,#150);
#118=EDGE_LOOP('',(#151,#152,#153,#154));
#119=AXIS2_PLACEMENT_3D('',#155,#156,#157);
#120=EDGE_LOOP('',(#158,#159,#160,#161));
#121=EDGE_LOOP('',(#162,#163));
#122=AXIS2_PLACEMENT_3D('',#164,#165,#166);
#123=EDGE_LOOP('',(#167,#168,#169,#170,#171,#172));
#124=AXIS2_PLACEMENT_3D('',#173,#174,#175);
#125=EDGE_LOOP('',(#176,#177,#178,#179));
#126=EDGE_LOOP('',(#180,#181));
#127=AXIS2_PLACEMENT_3D('',#182,#183,#184);
#128=EDGE_LOOP('',(#185,#186,#187,#188,#189,#190));
#129=AXIS2_PLACEMENT_3D('',#191,#192,#193);
#130=EDGE_LOOP('',(#194,#195,#196,#197));
#131=AXIS2_PLACEMENT_3D('',#198,#199,#200);
#132=EDGE_LOOP('',(#201,#202,#203,#204));
#133=AXIS2_PLACEMENT_3D('',#205,#206,#207);
#134=EDGE_LOOP('',(#208,#209,#210,#211));
#135=AXIS2_PLACEMENT_3D('',#212,#213,#214);
#136=EDGE_LOOP('',(#215,#216,#217,#218));
#137=EDGE_LOOP('',(#219,#220));
#138=AXIS2_PLACEMENT_3D('',#221,#222,#223);
#139=EDGE_LOOP('',(#224,#225,#226,#227));
#140=EDGE_LOOP('',(#228,#229));
#141=AXIS2_PLACEMENT_3D('',#230,#231,#232);
#142=EDGE_LOOP('',(#233,#234,#235,#236));
#143=AXIS2_PLACEMENT_3D('',#237,#238,#239);
#144=ORIENTED_EDGE('',*,*,#240,.T.);
#145=ORIENTED_EDGE('',*,*,#241,.T.);
#146=ORIENTED_EDGE('',*,*,#242,.F.);
#147=ORIENTED_EDGE('',*,*,#243,.F.);
#148=CARTESIAN_POINT('',(2.99999999992906,15.0,0.0));
#149=DIRECTION('',(1.0,-0.0,0.0));
#150=DIRECTION('',(0.0,0.0,-1.0));
#151=ORIENTED_EDGE('',*,*,#244,.T.);
#152=ORIENTED_EDGE('',*,*,#245,.T.);
#153=ORIENTED_EDGE('',*,*,#246,.T.);
#154=ORIENTED_EDGE('',*,*,#247,.F.);
#155=CARTESIAN_POINT('',(15.0,3.00000000004275,7.3468396925755E-33));
#156=DIRECTION('',(-2.71050543119022E-16,1.0,3.38813178898778E-17));
#157=DIRECTION('',(-1.0,-2.71050543119022E-16,0.0));
#158=ORIENTED_EDGE('',*,*,#248,.F.);
#159=ORIENTED_EDGE('',*,*,#249,.F.);
#160=ORIENTED_EDGE('',*,*,#250,.F.);
#161=ORIENTED_EDGE('',*,*,#251,.F.);
#162=ORIENTED_EDGE('',*,*,#240,.F.);
#163=ORIENTED_EDGE('',*,*,#252,.F.);
#164=CARTESIAN_POINT('',(0.0,0.0,15.0));
#165=DIRECTION('',(1.0,0.0,0.0));
#166=DIRECTION('',(0.0,1.0,-0.0));
#167=ORIENTED_EDGE('',*,*,#253,.T.);
#168=ORIENTED_EDGE('',*,*,#254,.T.);
#169=ORIENTED_EDGE('',*,*,#251,.T.);
#170=ORIENTED_EDGE('',*,*,#255,.T.);
#171=ORIENTED_EDGE('',*,*,#256,.T.);
#172=ORIENTED_EDGE('',*,*,#257,.T.);
#173=CARTESIAN_POINT('',(0.0,30.0,-15.0));
#174=DIRECTION('',(0.0,0.0,-1.0));
#175=DIRECTION('',(0.0,-1.0,0.0));
#176=ORIENTED_EDGE('',*,*,#258,.F.);
#177=ORIENTED_EDGE('',*,*,#259,.F.);
#178=ORIENTED_EDGE('',*,*,#248,.T.);
#179=ORIENTED_EDGE('',*,*,#254,.F.);
#180=ORIENTED_EDGE('',*,*,#244,.F.);
#181=ORIENTED_EDGE('',*,*,#260,.F.);
#182=CARTESIAN_POINT('',(0.0,0.0,15.0));
#183=DIRECTION('',(0.0,1.0,0.0));
#184=DIRECTION('',(1.0,0.0,-0.0));
#185=ORIENTED_EDGE('',*,*,#259,.T.);
#186=ORIENTED_EDGE('',*,*,#261,.F.);
#187=ORIENTED_EDGE('',*,*,#262,.F.);
#188=ORIENTED_EDGE('',*,*,#263,.F.);
#189=ORIENTED_EDGE('',*,*,#264,.F.);
#190=ORIENTED_EDGE('',*,*,#249,.T.);
#191=CARTESIAN_POINT('',(0.0,30.0,15.0));
#192=DIRECTION('',(0.0,0.0,-1.0));
#193=DIRECTION('',(0.0,-1.0,0.0));
#194=ORIENTED_EDGE('',*,*,#250,.T.);
#195=ORIENTED_EDGE('',*,*,#264,.T.);
#196=ORIENTED_EDGE('',*,*,#265,.F.);
#197=ORIENTED_EDGE('',*,*,#255,.F.);
#198=CARTESIAN_POINT('',(0.0,30.0,15.0));
#199=DIRECTION('',(0.0,-1.0,0.0));
#200=DIRECTION('',(0.0,0.0,-1.0));
#201=ORIENTED_EDGE('',*,*,#241,.F.);
#202=ORIENTED_EDGE('',*,*,#252,.T.);
#203=ORIENTED_EDGE('',*,*,#243,.T.);
#204=ORIENTED_EDGE('',*,*,#266,.F.);
#205=CARTESIAN_POINT('',(2.99999999992906,15.0,0.0));
#206=DIRECTION('',(1.0,-0.0,0.0));
#207=DIRECTION('',(0.0,0.0,-1.0));
#208=ORIENTED_EDGE('',*,*,#267,.F.);
#209=ORIENTED_EDGE('',*,*,#261,.T.);
#210=ORIENTED_EDGE('',*,*,#258,.T.);
#211=ORIENTED_EDGE('',*,*,#253,.F.);
#212=CARTESIAN_POINT('',(30.0,0.0,15.0));
#213=DIRECTION('',(-1.0,0.0,0.0));
#214=DIRECTION('',(0.0,0.0,1.0));
#215=ORIENTED_EDGE('',*,*,#268,.F.);
#216=ORIENTED_EDGE('',*,*,#262,.T.);
#217=ORIENTED_EDGE('',*,*,#267,.T.);
#218=ORIENTED_EDGE('',*,*,#257,.F.);
#219=ORIENTED_EDGE('',*,*,#269,.F.);
#220=ORIENTED_EDGE('',*,*,#246,.F.);
#221=CARTESIAN_POINT('',(3.0,3.0,15.0));
#222=DIRECTION('',(1.60622544071927E-17,-1.0,0.0));
#223=DIRECTION('',(0.0,0.0,-1.0));
#224=ORIENTED_EDGE('',*,*,#265,.T.);
#225=ORIENTED_EDGE('',*,*,#263,.T.);
#226=ORIENTED_EDGE('',*,*,#268,.T.);
#227=ORIENTED_EDGE('',*,*,#256,.F.);
#228=ORIENTED_EDGE('',*,*,#242,.T.);
#229=ORIENTED_EDGE('',*,*,#266,.T.);
#230=CARTESIAN_POINT('',(3.0,30.0,15.0));
#231=DIRECTION('',(-1.0,-1.28498035257541E-16,0.0));
#232=DIRECTION('',(-1.28498035257541E-16,1.0,0.0));
#233=ORIENTED_EDGE('',*,*,#245,.F.);
#234=ORIENTED_EDGE('',*,*,#260,.T.);
#235=ORIENTED_EDGE('',*,*,#247,.T.);
#236=ORIENTED_EDGE('',*,*,#269,.T.);
#237=CARTESIAN_POINT('',(15.0,3.00000000004275,7.3468396925755E-33));
#238=DIRECTION('',(-2.71050543119022E-16,1.0,3.38813178898778E-17));
#239=DIRECTION('',(-1.0,-2.71050543119022E-16,0.0));
#240=EDGE_CURVE('',#270,#271,#272,.T.);
#241=EDGE_CURVE('',#271,#273,#274,.T.);
#242=EDGE_CURVE('',#275,#273,#276,.T.);
#243=EDGE_CURVE('',#270,#275,#277,.T.);
#244=EDGE_CURVE('',#278,#279,#280,.T.);
#245=EDGE_CURVE('',#279,#281,#282,.T.);
#246=EDGE_CURVE('',#281,#283,#284,.T.);
#247=EDGE_CURVE('',#278,#283,#285,.T.);
#248=EDGE_CURVE('',#286,#287,#288,.T.);
#249=EDGE_CURVE('',#289,#286,#290,.T.);
#250=EDGE_CURVE('',#291,#289,#292,.T.);
#251=EDGE_CURVE('',#287,#291,#293,.T.);
#252=EDGE_CURVE('',#271,#270,#294,.T.);
#253=EDGE_CURVE('',#295,#296,#297,.T.);
#254=EDGE_CURVE('',#296,#287,#298,.T.);
#255=EDGE_CURVE('',#291,#299,#300,.T.);
#256=EDGE_CURVE('',#299,#301,#302,.T.);
#257=EDGE_CURVE('',#301,#295,#303,.T.);
#258=EDGE_CURVE('',#304,#296,#305,.T.);
#259=EDGE_CURVE('',#286,#304,#306,.T.);
#260=EDGE_CURVE('',#279,#278,#307,.T.);
#261=EDGE_CURVE('',#308,#304,#309,.T.);
#262=EDGE_CURVE('',#310,#308,#311,.T.);
#263=EDGE_CURVE('',#312,#310,#313,.T.);
#264=EDGE_CURVE('',#289,#312,#314,.T.);
#265=EDGE_CURVE('',#299,#312,#315,.T.);
#266=EDGE_CURVE('',#273,#275,#316,.T.);
#267=EDGE_CURVE('',#308,#295,#317,.T.);
#268=EDGE_CURVE('',#310,#301,#318,.T.);
#269=EDGE_CURVE('',#283,#281,#319,.T.);
#270=VERTEX_POINT('',#320);
#271=VERTEX_POINT('',#321);
#272=CIRCLE('',#322,3.39999999999918);
#273=VERTEX_POINT('',#323);
#274=LINE('',#324,#325);
#275=VERTEX_POINT('',#326);
#276=CIRCLE('',#327,6.39999999998508);
#277=LINE('',#328,#329);
#278=VERTEX_POINT('',#330);
#279=VERTEX_POINT('',#331);
#280=CIRCLE('',#332,3.40000000001283);
#281=VERTEX_POINT('',#333);
#282=LINE('',#334,#335);
#283=VERTEX_POINT('',#336);
#284=CIRCLE('',#337,6.40000000011241);
#285=LINE('',#338,#339);
#286=VERTEX_POINT('',#340);
#287=VERTEX_POINT('',#341);
#288=LINE('',#342,#343);
#289=VERTEX_POINT('',#344);
#290=LINE('',#345,#346);
#291=VERTEX_POINT('',#347);
#292=LINE('',#348,#349);
#293=LINE('',#350,#351);
#294=CIRCLE('',#352,3.39999999999918);
#295=VERTEX_POINT('',#353);
#296=VERTEX_POINT('',#354);
#297=LINE('',#355,#356);
#298=LINE('',#357,#358);
#299=VERTEX_POINT('',#359);
#300=LINE('',#360,#361);
#301=VERTEX_POINT('',#362);
#302=LINE('',#363,#364);
#303=LINE('',#365,#366);
#304=VERTEX_POINT('',#367);
#305=LINE('',#368,#369);
#306=LINE('',#370,#371);
#307=CIRCLE('',#372,3.40000000001283);
#308=VERTEX_POINT('',#373);
#309=LINE('',#374,#375);
#310=VERTEX_POINT('',#376);
#311=LINE('',#377,#378);
#312=VERTEX_POINT('',#379);
#313=LINE('',#380,#381);
#314=LINE('',#382,#383);
#315=LINE('',#384,#385);
#316=CIRCLE('',#386,6.39999999998508);
#317=LINE('',#387,#388);
#318=LINE('',#389,#390);
#319=CIRCLE('',#391,6.40000000011241);
#320=CARTESIAN_POINT('',(0.0,15.0,-3.39999999999918));
#321=CARTESIAN_POINT('',(0.0,15.0,3.39999999999918));
#322=AXIS2_PLACEMENT_3D('',#392,#393,#394);
#323=CARTESIAN_POINT('',(2.9999999999859,15.0,6.39999999998508));
#324=CARTESIAN_POINT('',(2.99999999992906,15.0,6.39999999992824));
#325=VECTOR('',#395,1000.0);
#326=CARTESIAN_POINT('',(2.9999999999859,15.0,-6.39999999998508));
#327=AXIS2_PLACEMENT_3D('',#396,#397,#398);
#328=CARTESIAN_POINT('',(2.99999999992906,15.0,-6.39999999992824));
#329=VECTOR('',#399,1000.0);
#330=CARTESIAN_POINT('',(11.5999999999872,6.97955148542634E-16,-1.01643953671082E-16));
#331=CARTESIAN_POINT('',(18.4000000000128,2.77149180341056E-15,5.4925495474889E-16));
#332=AXIS2_PLACEMENT_3D('',#400,#401,#402);
#333=CARTESIAN_POINT('',(21.4000000001124,3.00000000009959,7.83773951469999E-16));
#334=CARTESIAN_POINT('',(21.4000000000556,3.00000000004275,7.83773951461112E-16));
#335=VECTOR('',#403,1000.0);
#336=CARTESIAN_POINT('',(8.59999999988759,3.00000000009959,1.92585647597359E-27));
#337=AXIS2_PLACEMENT_3D('',#404,#405,#406);
#338=CARTESIAN_POINT('',(8.59999999994443,3.00000000004275,7.3468396925755E-33));
#339=VECTOR('',#407,1000.0);
#340=CARTESIAN_POINT('',(0.0,0.0,15.0));
#341=CARTESIAN_POINT('',(0.0,0.0,-15.0));
#342=CARTESIAN_POINT('',(0.0,0.0,15.0));
#343=VECTOR('',#408,1000.0);
#344=CARTESIAN_POINT('',(0.0,30.0,15.0));
#345=CARTESIAN_POINT('',(0.0,0.0,15.0));
#346=VECTOR('',#409,1000.0);
#347=CARTESIAN_POINT('',(0.0,30.0,-15.0));
#348=CARTESIAN_POINT('',(0.0,30.0,15.0));
#349=VECTOR('',#410,1000.0);
#350=CARTESIAN_POINT('',(0.0,0.0,-15.0));
#351=VECTOR('',#411,1000.0);
#352=AXIS2_PLACEMENT_3D('',#412,#413,#414);
#353=CARTESIAN_POINT('',(30.0,3.0,-15.0));
#354=CARTESIAN_POINT('',(30.0,0.0,-15.0));
#355=CARTESIAN_POINT('',(30.0,30.0,-15.0));
#356=VECTOR('',#415,1000.0);
#357=CARTESIAN_POINT('',(0.0,0.0,-15.0));
#358=VECTOR('',#416,1000.0);
#359=CARTESIAN_POINT('',(3.0,30.0,-15.0));
#360=CARTESIAN_POINT('',(0.0,30.0,-15.0));
#361=VECTOR('',#417,1000.0);
#362=CARTESIAN_POINT('',(3.0,3.0,-15.0));
#363=CARTESIAN_POINT('',(3.0,30.0,-15.0));
#364=VECTOR('',#418,1000.0);
#365=CARTESIAN_POINT('',(0.0,3.0,-15.0));
#366=VECTOR('',#419,1000.0);
#367=CARTESIAN_POINT('',(30.0,0.0,15.0));
#368=CARTESIAN_POINT('',(30.0,0.0,15.0));
#369=VECTOR('',#420,1000.0);
#370=CARTESIAN_POINT('',(0.0,0.0,15.0));
#371=VECTOR('',#421,1000.0);
#372=AXIS2_PLACEMENT_3D('',#422,#423,#424);
#373=CARTESIAN_POINT('',(30.0,3.0,15.0));
#374=CARTESIAN_POINT('',(30.0,30.0,15.0));
#375=VECTOR('',#425,1000.0);
#376=CARTESIAN_POINT('',(3.0,3.0,15.0));
#377=CARTESIAN_POINT('',(0.0,3.0,15.0));
#378=VECTOR('',#426,1000.0);
#379=CARTESIAN_POINT('',(3.0,30.0,15.0));
#380=CARTESIAN_POINT('',(3.0,30.0,15.0));
#381=VECTOR('',#427,1000.0);
#382=CARTESIAN_POINT('',(0.0,30.0,15.0));
#383=VECTOR('',#428,1000.0);
#384=CARTESIAN_POINT('',(3.0,30.0,15.0));
#385=VECTOR('',#429,1000.0);
#386=AXIS2_PLACEMENT_3D('',#430,#431,#432);
#387=CARTESIAN_POINT('',(30.0,3.0,15.0));
#388=VECTOR('',#433,1000.0);
#389=CARTESIAN_POINT('',(3.0,3.0,15.0));
#390=VECTOR('',#434,1000.0);
#391=AXIS2_PLACEMENT_3D('',#435,#436,#437);
#392=CARTESIAN_POINT('',(0.0,15.0,0.0));
#393=DIRECTION('',(-1.0,-0.0,-0.0));
#394=DIRECTION('',(0.0,0.0,-1.0));
#395=DIRECTION('',(0.707106781186548,8.65956056235493E-17,0.707106781186547));
#396=CARTESIAN_POINT('',(2.9999999999859,15.0,0.0));
#397=DIRECTION('',(-1.0,-0.0,-0.0));
#398=DIRECTION('',(0.0,0.0,-1.0));
#399=DIRECTION('',(0.707106781186548,0.0,-0.707106781186547));
#400=CARTESIAN_POINT('',(15.0,1.73472347597681E-15,-1.01643953671082E-16));
#401=DIRECTION('',(3.049318610089E-16,-1.0,-3.38813178898778E-17));
#402=DIRECTION('',(-1.0,-3.049318610089E-16,0.0));
#403=DIRECTION('',(0.707106781186547,0.707106781186548,1.10553315259019E-16));
#404=CARTESIAN_POINT('',(15.0,3.00000000009959,1.92587116965297E-27));
#405=DIRECTION('',(-3.38813178895769E-16,1.0,3.38813178898778E-17));
#406=DIRECTION('',(-1.0,-3.38813178895769E-16,0.0));
#407=DIRECTION('',(-0.707106781186547,0.707106781186548,2.39577096354697E-17));
#408=DIRECTION('',(0.0,0.0,-1.0));
#409=DIRECTION('',(0.0,-1.0,-0.0));
#410=DIRECTION('',(-0.0,-0.0,1.0));
#411=DIRECTION('',(-0.0,1.0,0.0));
#412=CARTESIAN_POINT('',(0.0,15.0,0.0));
#413=DIRECTION('',(-1.0,-0.0,-0.0));
#414=DIRECTION('',(0.0,0.0,-1.0));
#415=DIRECTION('',(-0.0,-1.0,-0.0));
#416=DIRECTION('',(-1.0,0.0,-0.0));
#417=DIRECTION('',(1.0,-0.0,0.0));
#418=DIRECTION('',(-0.0,-1.0,-0.0));
#419=DIRECTION('',(1.0,-0.0,0.0));
#420=DIRECTION('',(-0.0,0.0,-1.0));
#421=DIRECTION('',(1.0,0.0,-0.0));
#422=CARTESIAN_POINT('',(15.0,1.73472347597681E-15,-1.01643953671082E-16));
#423=DIRECTION('',(3.049318610089E-16,-1.0,-3.38813178898778E-17));
#424=DIRECTION('',(-1.0,-3.049318610089E-16,0.0));
#425=DIRECTION('',(-0.0,-1.0,-0.0));
#426=DIRECTION('',(1.0,-0.0,0.0));
#427=DIRECTION('',(-0.0,-1.0,-0.0));
#428=DIRECTION('',(1.0,-0.0,0.0));
#429=DIRECTION('',(-0.0,0.0,1.0));
#430=CARTESIAN_POINT('',(2.9999999999859,15.0,0.0));
#431=DIRECTION('',(-1.0,-0.0,-0.0));
#432=DIRECTION('',(0.0,0.0,-1.0));
#433=DIRECTION('',(-0.0,-0.0,-1.0));
#434=DIRECTION('',(0.0,-0.0,-1.0));
#435=CARTESIAN_POINT('',(15.0,3.00000000009959,1.92587116965297E-27));
#436=DIRECTION('',(-3.38813178895769E-16,1.0,3.38813178898778E-17));
#437=DIRECTION('',(-1.0,-3.38813178895769E-16,0.0));
ENDSEC;
END-ISO-10303-21;
